  0
SECTION
  2
HEADER
  9
$ACADVER
  1
AC1015
  9
$ACADMAINTVER
 70
     6
  9
$DWGCODEPAGE
  3
ANSI_1254
  9
$INSBASE
 10
0.0
 20
0.0
 30
0.0
  9
$EXTMIN
 10
0.0
 20
0.0
 30
0.0
  9
$EXTMAX
 10
279.4
 20
215.9
 30
0.0
  9
$LIMMIN
 10
0.0
 20
0.0
  9
$LIMMAX
 10
279.4
 20
215.9
  9
$ORTHOMODE
 70
     0
  9
$REGENMODE
 70
     1
  9
$FILLMODE
 70
     1
  9
$QTEXTMODE
 70
     0
  9
$MIRRTEXT
 70
     1
  9
$LTSCALE
 40
1.0
  9
$ATTMODE
 70
     1
  9
$TEXTSIZE
 40
3.5
  9
$TRACEWID
 40
1.0
  9
$TEXTSTYLE
  7
Standard
  9
$CLAYER
  8
0
  9
$CELTYPE
  6
ByLayer
  9
$CECOLOR
 62
   256
  9
$CELTSCALE
 40
1.0
  9
$DISPSILH
 70
     0
  9
$DIMSCALE
 40
1.0
  9
$DIMASZ
 40
3.5
  9
$DIMEXO
 40
1.0
  9
$DIMDLI
 40
3.75
  9
$DIMRND
 40
0.0
  9
$DIMDLE
 40
0.0
  9
$DIMEXE
 40
1.0
  9
$DIMTP
 40
0.0
  9
$DIMTM
 40
0.0
  9
$DIMTXT
 40
3.5
  9
$DIMCEN
 40
2.5
  9
$DIMTSZ
 40
0.0
  9
$DIMTOL
 70
     0
  9
$DIMLIM
 70
     0
  9
$DIMTIH
 70
     1
  9
$DIMTOH
 70
     1
  9
$DIMSE1
 70
     0
  9
$DIMSE2
 70
     0
  9
$DIMTAD
 70
     1
  9
$DIMZIN
 70
     0
  9
$DIMBLK
  1

  9
$DIMASO
 70
     1
  9
$DIMSHO
 70
     1
  9
$DIMPOST
  1

  9
$DIMAPOST
  1

  9
$DIMALT
 70
     0
  9
$DIMALTD
 70
     3
  9
$DIMALTF
 40
0.0393700787
  9
$DIMLFAC
 40
1.0
  9
$DIMTOFL
 70
     1
  9
$DIMTVP
 40
0.0
  9
$DIMTIX
 70
     0
  9
$DIMSOXD
 70
     0
  9
$DIMSAH
 70
     0
  9
$DIMBLK1
  1

  9
$DIMBLK2
  1

  9
$DIMSTYLE
  2
ISO-25
  9
$DIMCLRD
 70
     0
  9
$DIMCLRE
 70
     0
  9
$DIMCLRT
 70
     0
  9
$DIMTFAC
 40
1.0
  9
$DIMGAP
 40
1.524
  9
$DIMJUST
 70
     0
  9
$DIMSD1
 70
     0
  9
$DIMSD2
 70
     0
  9
$DIMTOLJ
 70
     0
  9
$DIMTZIN
 70
     0
  9
$DIMALTZ
 70
     0
  9
$DIMALTTZ
 70
     0
  9
$DIMUPT
 70
     0
  9
$DIMDEC
 70
     2
  9
$DIMTDEC
 70
     2
  9
$DIMALTU
 70
     2
  9
$DIMALTTD
 70
     3
  9
$DIMTXSTY
  7
Standard
  9
$DIMAUNIT
 70
     0
  9
$DIMADEC
 70
     2
  9
$DIMALTRND
 40
0.0
  9
$DIMAZIN
 70
     0
  9
$DIMDSEP
 70
    44
  9
$DIMATFIT
 70
     3
  9
$DIMFRAC
 70
     0
  9
$DIMLDRBLK
  1

  9
$DIMLUNIT
 70
     2
  9
$DIMLWD
 70
    -2
  9
$DIMLWE
 70
    -2
  9
$DIMTMOVE
 70
     0
  9
$LUNITS
 70
     2
  9
$LUPREC
 70
     2
  9
$SKETCHINC
 40
1.0
  9
$FILLETRAD
 40
10.0
  9
$AUNITS
 70
     0
  9
$AUPREC
 70
     2
  9
$MENU
  1
.
  9
$ELEVATION
 40
0.0
  9
$PELEVATION
 40
0.0
  9
$THICKNESS
 40
0.0
  9
$LIMCHECK
 70
     0
  9
$CHAMFERA
 40
0.0
  9
$CHAMFERB
 40
0.0
  9
$CHAMFERC
 40
0.0
  9
$CHAMFERD
 40
0.0
  9
$SKPOLY
 70
     0
  9
$TDCREATE
 40
2458985.699191724
  9
$TDUCREATE
 40
2458985.574191724
  9
$TDUPDATE
 40
2458985.699192014
  9
$TDUUPDATE
 40
2458985.574192014
  9
$TDINDWG
 40
0.0000000116
  9
$TDUSRTIMER
 40
0.0000000116
  9
$USRTIMER
 70
     1
  9
$ANGBASE
 50
0.0
  9
$ANGDIR
 70
     0
  9
$PDMODE
 70
     0
  9
$PDSIZE
 40
-1.0
  9
$PLINEWID
 40
0.0
  9
$SPLFRAME
 70
     0
  9
$SPLINETYPE
 70
     6
  9
$SPLINESEGS
 70
     8
  9
$HANDSEED
  5
ED
  9
$SURFTAB1
 70
     6
  9
$SURFTAB2
 70
     6
  9
$SURFTYPE
 70
     6
  9
$SURFU
 70
     6
  9
$SURFV
 70
     6
  9
$UCSBASE
  2

  9
$UCSNAME
  2

  9
$UCSORG
 10
0.0
 20
0.0
 30
0.0
  9
$UCSXDIR
 10
1.0
 20
0.0
 30
0.0
  9
$UCSYDIR
 10
0.0
 20
1.0
 30
0.0
  9
$UCSORTHOREF
  2

  9
$UCSORTHOVIEW
 70
     0
  9
$UCSORGTOP
 10
0.0
 20
0.0
 30
0.0
  9
$UCSORGBOTTOM
 10
0.0
 20
0.0
 30
0.0
  9
$UCSORGLEFT
 10
0.0
 20
0.0
 30
0.0
  9
$UCSORGRIGHT
 10
0.0
 20
0.0
 30
0.0
  9
$UCSORGFRONT
 10
0.0
 20
0.0
 30
0.0
  9
$UCSORGBACK
 10
0.0
 20
0.0
 30
0.0
  9
$PUCSBASE
  2

  9
$PUCSNAME
  2

  9
$PUCSORG
 10
0.0
 20
0.0
 30
0.0
  9
$PUCSXDIR
 10
1.0
 20
0.0
 30
0.0
  9
$PUCSYDIR
 10
0.0
 20
1.0
 30
0.0
  9
$PUCSORTHOREF
  2

  9
$PUCSORTHOVIEW
 70
     0
  9
$PUCSORGTOP
 10
0.0
 20
0.0
 30
0.0
  9
$PUCSORGBOTTOM
 10
0.0
 20
0.0
 30
0.0
  9
$PUCSORGLEFT
 10
0.0
 20
0.0
 30
0.0
  9
$PUCSORGRIGHT
 10
0.0
 20
0.0
 30
0.0
  9
$PUCSORGFRONT
 10
0.0
 20
0.0
 30
0.0
  9
$PUCSORGBACK
 10
0.0
 20
0.0
 30
0.0
  9
$USERI1
 70
     0
  9
$USERI2
 70
     0
  9
$USERI3
 70
     0
  9
$USERI4
 70
     0
  9
$USERI5
 70
     0
  9
$USERR1
 40
0.0
  9
$USERR2
 40
0.0
  9
$USERR3
 40
0.0
  9
$USERR4
 40
0.0
  9
$USERR5
 40
0.0
  9
$WORLDVIEW
 70
     1
  9
$SHADEDGE
 70
     3
  9
$SHADEDIF
 70
    70
  9
$TILEMODE
 70
     1
  9
$MAXACTVP
 70
    64
  9
$PINSBASE
 10
0.0
 20
0.0
 30
0.0
  9
$PLIMCHECK
 70
     0
  9
$PEXTMIN
 10
1.0000000000E+20
 20
1.0000000000E+20
 30
1.0000000000E+20
  9
$PEXTMAX
 10
-1.0000000000E+20
 20
-1.0000000000E+20
 30
-1.0000000000E+20
  9
$PLIMMIN
 10
0.0
 20
0.0
  9
$PLIMMAX
 10
420.0
 20
297.0
  9
$UNITMODE
 70
     0
  9
$VISRETAIN
 70
     1
  9
$PLINEGEN
 70
     0
  9
$PSLTSCALE
 70
     1
  9
$TREEDEPTH
 70
  3020
  9
$CMLSTYLE
  2
Standard
  9
$CMLJUST
 70
     0
  9
$CMLSCALE
 40
20.0
  9
$PROXYGRAPHICS
 70
     1
  9
$MEASUREMENT
 70
     1
  9
$CELWEIGHT
370
    -1
  9
$ENDCAPS
280
     0
  9
$JOINSTYLE
280
     0
  9
$LWDISPLAY
290
     1
  9
$INSUNITS
 70
     4
  9
$HYPERLINKBASE
  1

  9
$STYLESHEET
  1

  9
$XEDIT
290
     1
  9
$CEPSNTYPE
380
     0
  9
$PSTYLEMODE
290
     1
  9
$FINGERPRINTGUID
  2
{864ccadd-2e3e-49fa-b655-3a6ed7b7d95b}
  9
$VERSIONGUID
  2
{FAEB1C32-E019-11D5-929B-00C0DF256EC4}
  9
$EXTNAMES
290
     1
  9
$PSVPSCALE
 40
0.0
  9
$OLESTARTUP
290
     0
  0
ENDSEC
  0
SECTION
  2
CLASSES
  0
CLASS
  1
ACDBDICTIONARYWDFLT
  2
AcDbDictionaryWithDefault
  3
ObjectDBX Classes
 90
        0
280
     0
281
     0
  0
CLASS
  1
VISUALSTYLE
  2
AcDbVisualStyle
  3
ObjectDBX Classes
 90
     4095
280
     0
281
     0
  0
CLASS
  1
MATERIAL
  2
AcDbMaterial
  3
ObjectDBX Classes
 90
     1153
280
     0
281
     0
  0
CLASS
  1
SCALE
  2
AcDbScale
  3
ObjectDBX Classes
 90
     1153
280
     0
281
     0
  0
CLASS
  1
TABLESTYLE
  2
AcDbTableStyle
  3
ObjectDBX Classes
 90
     4095
280
     0
281
     0
  0
CLASS
  1
MLEADERSTYLE
  2
AcDbMLeaderStyle
  3
ACDB_MLEADERSTYLE_CLASS
 90
     4095
280
     0
281
     0
  0
CLASS
  1
SUN
  2
AcDbSun
  3
SCENEOE
 90
     1153
280
     0
281
     0
  0
CLASS
  1
ACDBPLACEHOLDER
  2
AcDbPlaceHolder
  3
ObjectDBX Classes
 90
        0
280
     0
281
     0
  0
CLASS
  1
LAYOUT
  2
AcDbLayout
  3
ObjectDBX Classes
 90
        0
280
     0
281
     0
  0
ENDSEC
  0
SECTION
  2
TABLES
  0
TABLE
  2
VPORT
  5
8
330
0
100
AcDbSymbolTable
 70
     1
  0
VPORT
  5
29
330
8
100
AcDbSymbolTableRecord
100
AcDbViewportTableRecord
  2
*Active
 70
     0
 10
0.0
 20
0.0
 11
1.0
 21
1.0
 12
139.7
 22
107.95
 13
0.0
 23
0.0
 14
10.0
 24
10.0
 15
10.0
 25
10.0
 16
0.0
 26
0.0
 36
1.0
 17
0.0
 27
0.0
 37
0.0
 40
215.9
 41
1.2941176471
 42
50.0
 43
0.0
 44
0.0
 50
0.0
 51
0.0
 71
     0
 72
  2000
 73
     1
 74
     3
 75
     0
 76
     0
 77
     0
 78
     0
281
     0
 65
     1
110
0.0
120
0.0
130
0.0
111
1.0
121
0.0
131
0.0
112
0.0
122
1.0
132
0.0
 79
     0
146
0.0
  0
ENDTAB
  0
TABLE
  2
LTYPE
  5
5
330
0
100
AcDbSymbolTable
 70
     6
  0
LTYPE
  5
14
330
5
100
AcDbSymbolTableRecord
100
AcDbLinetypeTableRecord
  2
ByBlock
 70
     0
  3

 72
    65
 73
     0
 40
0.0
  0
LTYPE
  5
15
330
5
100
AcDbSymbolTableRecord
100
AcDbLinetypeTableRecord
  2
ByLayer
 70
     0
  3

 72
    65
 73
     0
 40
0.0
  0
LTYPE
  5
16
330
5
100
AcDbSymbolTableRecord
100
AcDbLinetypeTableRecord
  2
Continuous
 70
     0
  3
Solid line
 72
    65
 73
     0
 40
0.0
  0
LTYPE
  5
6E
330
5
100
AcDbSymbolTableRecord
100
AcDbLinetypeTableRecord
  2
HIDDEN
 70
     0
  3
Hidden __ __ __ __ __ __ __ __ __ __ __ __ __ __
 72
    65
 73
     2
 40
1.905
 49
1.27
 74
     0
 49
-0.635
 74
     0
  0
LTYPE
  5
6F
330
5
100
AcDbSymbolTableRecord
100
AcDbLinetypeTableRecord
  2
PHANTOM
 70
     0
  3
Phantom ______  __  __  ______  __  __  ______
 72
    65
 73
     6
 40
12.7
 49
6.35
 74
     0
 49
-1.27
 74
     0
 49
1.27
 74
     0
 49
-1.27
 74
     0
 49
1.27
 74
     0
 49
-1.27
 74
     0
  0
LTYPE
  5
70
330
5
100
AcDbSymbolTableRecord
100
AcDbLinetypeTableRecord
  2
CENTER
 70
     0
  3
Center ____ _ ____ _ ____ _ ____ _ ____ _ ____
 72
    65
 73
     4
 40
10.16
 49
6.35
 74
     0
 49
-1.27
 74
     0
 49
1.27
 74
     0
 49
-1.27
 74
     0
  0
LTYPE
  5
71
330
5
100
AcDbSymbolTableRecord
100
AcDbLinetypeTableRecord
  2
CENTERX2
 70
     0
  3
Center (2x) ________  __  ________  __  _____
 72
    65
 73
     4
 40
20.32
 49
12.7
 74
     0
 49
-2.54
 74
     0
 49
2.54
 74
     0
 49
-2.54
 74
     0
  0
LTYPE
  5
72
330
5
100
AcDbSymbolTableRecord
100
AcDbLinetypeTableRecord
  2
DOT2
 70
     0
  3
Dot (.5x) ........................................
 72
    65
 73
     2
 40
0.635
 49
0.0
 74
     0
 49
-0.635
 74
     0
  0
ENDTAB
  0
TABLE
  2
LAYER
  5
2
330
0
100
AcDbSymbolTable
 70
    17
  0
LAYER
  5
10
330
2
100
AcDbSymbolTableRecord
100
AcDbLayerTableRecord
  2
0
 70
     0
 62
     7
  6
Continuous
370
    -3
390
F
  0
LAYER
  5
73
330
2
100
AcDbSymbolTableRecord
100
AcDbLayerTableRecord
  2
FORMAT
 70
     0
 62
     7
  6
Continuous
370
    -3
390
F
  0
LAYER
  5
74
330
2
100
AcDbSymbolTableRecord
100
AcDbLayerTableRecord
  2
YARDIMCI_GEOMETRI
 70
     0
 62
    -6
  6
Continuous
290
     0
370
    -3
390
F
  0
LAYER
  5
75
330
2
100
AcDbSymbolTableRecord
100
AcDbLayerTableRecord
  2
SAYFA_CERCEVESI
 70
     0
 62
     7
  6
Continuous
370
    25
390
F
  0
LAYER
  5
76
330
2
100
AcDbSymbolTableRecord
100
AcDbLayerTableRecord
  2
ANTET
 70
     0
 62
     7
  6
Continuous
370
    -3
390
F
  0
LAYER
  5
77
330
2
100
AcDbSymbolTableRecord
100
AcDbLayerTableRecord
  2
OLCU
 70
     0
 62
   150
  6
Continuous
370
    -3
390
F
  0
LAYER
  5
78
330
2
100
AcDbSymbolTableRecord
100
AcDbLayerTableRecord
  2
METIN
 70
     0
 62
    96
  6
Continuous
370
    -3
390
F
  0
LAYER
  5
79
330
2
100
AcDbSymbolTableRecord
100
AcDbLayerTableRecord
  2
BALON
 70
     0
 62
     5
  6
Continuous
370
    -3
390
F
  0
LAYER
  5
7A
330
2
100
AcDbSymbolTableRecord
100
AcDbLayerTableRecord
  2
VURGU
 70
     0
 62
     7
  6
Continuous
370
    -3
390
F
  0
LAYER
  5
7B
330
2
100
AcDbSymbolTableRecord
100
AcDbLayerTableRecord
  2
SILIK
 70
     0
 62
     7
  6
Continuous
370
    -3
390
F
  0
LAYER
  5
7C
330
2
100
AcDbSymbolTableRecord
100
AcDbLayerTableRecord
  2
MODEL
 70
     0
 62
     7
  6
Continuous
370
    -3
390
F
  0
LAYER
  5
7D
330
2
100
AcDbSymbolTableRecord
100
AcDbLayerTableRecord
  2
DETAYLANDıRMA
 70
     0
 62
   190
  6
Continuous
370
    -3
390
F
  0
LAYER
  5
7E
330
2
100
AcDbSymbolTableRecord
100
AcDbLayerTableRecord
  2
TOLERANS
 70
     0
 62
   230
  6
Continuous
370
    -3
390
F
  0
LAYER
  5
7F
330
2
100
AcDbSymbolTableRecord
100
AcDbLayerTableRecord
  2
MERKEZ_CIZGILERI
 70
     0
 62
    30
  6
Continuous
370
    -3
390
F
  0
LAYER
  5
80
330
2
100
AcDbSymbolTableRecord
100
AcDbLayerTableRecord
  2
KESIT-DETAY_CIZGILERI
 70
     0
 62
     7
  6
Continuous
370
    -3
390
F
  0
LAYER
  5
81
330
2
100
AcDbSymbolTableRecord
100
AcDbLayerTableRecord
  2
\U+041E\U+0421\U+0415\U+0412\U+042B\U+0415
 70
     0
 62
     7
  6
Continuous
370
    -3
390
F
  0
LAYER
  5
82
330
2
100
AcDbSymbolTableRecord
100
AcDbLayerTableRecord
  2
\U+0412\U+041E\U+0414\U+042F\U+041D\U+042B\U+0415_\U+0417\U+041D\U+0410\U+041A\U+0418
 70
     0
 62
    11
  6
Continuous
370
    -3
390
F
  0
ENDTAB
  0
TABLE
  2
STYLE
  5
3
330
0
100
AcDbSymbolTable
 70
     1
  0
STYLE
  5
11
330
3
100
AcDbSymbolTableRecord
100
AcDbTextStyleTableRecord
  2
Standard
 70
     0
 40
0.0
 41
1.0
 50
0.0
 71
     0
 42
3.5
  3
txt
  4

  0
ENDTAB
  0
TABLE
  2
VIEW
  5
6
330
0
100
AcDbSymbolTable
 70
     0
  0
ENDTAB
  0
TABLE
  2
UCS
  5
7
330
0
100
AcDbSymbolTable
 70
     0
  0
ENDTAB
  0
TABLE
  2
APPID
  5
9
330
0
100
AcDbSymbolTable
 70
     1
  0
APPID
  5
12
330
9
100
AcDbSymbolTableRecord
100
AcDbRegAppTableRecord
  2
ACAD
 70
     0
  0
ENDTAB
  0
TABLE
  2
DIMSTYLE
  5
A
330
0
100
AcDbSymbolTable
 70
     1
100
AcDbDimStyleTable
  0
DIMSTYLE
105
27
330
A
100
AcDbSymbolTableRecord
100
AcDbDimStyleTableRecord
  2
ISO-25
 70
     0
 41
2.5
 42
0.625
 43
3.75
 44
1.25
 73
     0
 74
     0
 77
     1
 78
     8
140
2.5
141
2.5
143
0.0393700787
147
0.625
171
     3
172
     1
178
     0
271
     2
272
     2
274
     3
278
    44
283
     0
284
     8
340
11
  0
ENDTAB
  0
TABLE
  2
BLOCK_RECORD
  5
1
330
0
100
AcDbSymbolTable
 70
     2
  0
BLOCK_RECORD
  5
1F
330
1
100
AcDbSymbolTableRecord
100
AcDbBlockTableRecord
  2
*Model_Space
340
22
  0
BLOCK_RECORD
  5
1B
330
1
100
AcDbSymbolTableRecord
100
AcDbBlockTableRecord
  2
*Paper_Space
340
1E
  0
BLOCK_RECORD
  5
23
330
1
100
AcDbSymbolTableRecord
100
AcDbBlockTableRecord
  2
*Paper_Space0
340
26
  0
BLOCK_RECORD
  5
88
330
1
100
AcDbSymbolTableRecord
100
AcDbBlockTableRecord
  2
SW_CENTERMARKSYMBOL_0
340
0
102
{BLKREFS
331
93
102
}
  0
ENDTAB
  0
ENDSEC
  0
SECTION
  2
BLOCKS
  0
BLOCK
  5
20
330
1F
100
AcDbEntity
  8
0
100
AcDbBlockBegin
  2
*Model_Space
 70
     0
 10
0.0
 20
0.0
 30
0.0
  3
*Model_Space
  1

  0
ENDBLK
  5
21
330
1F
100
AcDbEntity
  8
0
100
AcDbBlockEnd
  0
BLOCK
  5
1C
330
1B
100
AcDbEntity
 67
     1
  8
0
100
AcDbBlockBegin
  2
*Paper_Space
 70
     0
 10
0.0
 20
0.0
 30
0.0
  3
*Paper_Space
  1

  0
ENDBLK
  5
1D
330
1B
100
AcDbEntity
 67
     1
  8
0
100
AcDbBlockEnd
  0
BLOCK
  5
24
330
23
100
AcDbEntity
  8
0
100
AcDbBlockBegin
  2
*Paper_Space0
 70
     0
 10
0.0
 20
0.0
 30
0.0
  3
*Paper_Space0
  1

  0
ENDBLK
  5
25
330
23
100
AcDbEntity
  8
0
100
AcDbBlockEnd
  0
BLOCK
  5
89
330
88
100
AcDbEntity
  8
0
100
AcDbBlockBegin
  2
SW_CENTERMARKSYMBOL_0
 70
     0
 10
0.0
 20
0.0
 30
0.0
  3
SW_CENTERMARKSYMBOL_0
  1

  0
LINE
  5
8B
330
88
100
AcDbEntity
  8
FORMAT
 62
     0
100
AcDbLine
 10
0.0
 20
0.0
 30
0.0
 11
0.0
 21
2.5
 31
0.0
  0
LINE
  5
8C
330
88
100
AcDbEntity
  8
FORMAT
 62
     0
100
AcDbLine
 10
0.0
 20
0.0
 30
0.0
 11
-2.5
 21
0.0
 31
0.0
  0
LINE
  5
8D
330
88
100
AcDbEntity
  8
FORMAT
 62
     0
100
AcDbLine
 10
0.0
 20
0.0
 30
0.0
 11
0.0
 21
-2.5
 31
0.0
  0
LINE
  5
8E
330
88
100
AcDbEntity
  8
FORMAT
 62
     0
100
AcDbLine
 10
0.0
 20
0.0
 30
0.0
 11
2.5
 21
0.0
 31
0.0
  0
LINE
  5
8F
330
88
100
AcDbEntity
  8
FORMAT
 62
     0
100
AcDbLine
 10
0.0
 20
5.0
 30
0.0
 11
0.0
 21
72.5
 31
0.0
  0
LINE
  5
90
330
88
100
AcDbEntity
  8
FORMAT
 62
     0
100
AcDbLine
 10
-5.0
 20
0.0
 30
0.0
 11
-72.5
 21
0.0
 31
0.0
  0
LINE
  5
91
330
88
100
AcDbEntity
  8
FORMAT
 62
     0
100
AcDbLine
 10
0.0
 20
-5.0
 30
0.0
 11
0.0
 21
-72.5
 31
0.0
  0
LINE
  5
92
330
88
100
AcDbEntity
  8
FORMAT
 62
     0
100
AcDbLine
 10
5.0
 20
0.0
 30
0.0
 11
72.5
 21
0.0
 31
0.0
  0
ENDBLK
  5
8A
330
88
100
AcDbEntity
  8
0
100
AcDbBlockEnd
  0
ENDSEC
  0
SECTION
  2
ENTITIES
  0
CIRCLE
  5
83
330
1F
100
AcDbEntity
  8
0
  6
Continuous
 62
     7
370
    25
100
AcDbCircle
 10
139.395004093
 20
107.5851680021
 30
0.0
 40
70.00000000000001
  0
CIRCLE
  5
84
330
1F
100
AcDbEntity
  8
0
  6
Continuous
 62
     7
370
    25
100
AcDbCircle
 10
139.395004093
 20
107.5851680021
 30
0.0
 40
57.30000000000003
  0
CIRCLE
  5
85
330
1F
100
AcDbEntity
  8
0
  6
Continuous
 62
     7
370
    25
100
AcDbCircle
 10
139.395004093
 20
107.5851680021
 30
0.0
 40
56.74356684479531
  0
CIRCLE
  5
86
330
1F
100
AcDbEntity
  8
0
  6
Continuous
 62
     7
370
    25
100
AcDbCircle
 10
139.395004093
 20
107.5851680021
 30
0.0
 40
31.25643315520472
  0
CIRCLE
  5
87
330
1F
100
AcDbEntity
  8
0
  6
Continuous
 62
     7
370
    25
100
AcDbCircle
 10
139.395004093
 20
107.5851680021
 30
0.0
 40
30.7
  0
INSERT
  5
93
330
1F
100
AcDbEntity
  8
FORMAT
 62
     7
100
AcDbBlockReference
  2
SW_CENTERMARKSYMBOL_0
 10
139.395004093
 20
107.5851680021
 30
0.0
  0
ARC
  5
94
330
1F
100
AcDbEntity
  8
0
  6
Continuous
 62
     7
370
    25
100
AcDbCircle
 10
-121.5824023311
 20
175.5851680021
 30
0.0
 40
2.000000000000011
100
AcDbArc
 50
62.7120120545
 51
90.0
  0
ARC
  5
95
330
1F
100
AcDbEntity
  8
0
  6
Continuous
 62
     7
370
    25
100
AcDbCircle
 10
-121.5824023311
 20
39.5851680021
 30
0.0
 40
1.999999999999998
100
AcDbArc
 50
270.0
 51
297.2879879455
  0
LINE
  5
96
330
1F
100
AcDbEntity
  8
0
  6
Continuous
 62
     7
370
    25
100
AcDbLine
 10
-121.5824015297
 20
177.5851683001
 30
0.0
 11
-213.0969218768
 21
177.5851683001
 31
0.0
  0
LINE
  5
97
330
1F
100
AcDbEntity
  8
0
  6
Continuous
 62
     7
370
    25
100
AcDbLine
 10
-213.0969218768
 20
37.5851677041
 30
0.0
 11
-121.5824015297
 21
37.5851677041
 31
0.0
  0
LINE
  5
98
330
1F
100
AcDbEntity
  8
0
  6
Continuous
 62
     7
370
    25
100
AcDbLine
 10
-120.6654753394
 20
37.8077388983
 30
0.0
 11
-58.5283763565
 21
69.8625953178
 31
0.0
  0
LINE
  5
99
330
1F
100
AcDbEntity
  8
0
  6
Continuous
 62
     7
370
    25
100
AcDbLine
 10
-58.5283763565
 20
145.3077406864
 30
0.0
 11
-120.6654753394
 21
177.362597106
 31
0.0
  0
ARC
  5
9A
330
1F
100
AcDbEntity
  8
0
  6
Continuous
 62
     7
370
    25
100
AcDbCircle
 10
-57.6114487636
 20
147.0851680021
 30
0.0
 40
2.000000000000027
100
AcDbArc
 50
242.7120120545
 51
270.0
  0
ARC
  5
9B
330
1F
100
AcDbEntity
  8
0
  6
Continuous
 62
     7
370
    25
100
AcDbCircle
 10
-57.6114487636
 20
68.0851680021
 30
0.0
 40
2.000000000000001
100
AcDbArc
 50
90.0
 51
117.2879879455
  0
LINE
  5
9C
330
1F
100
AcDbEntity
  8
0
  6
Continuous
 62
     7
370
    25
100
AcDbLine
 10
11.9030721627
 20
145.0851694922
 30
0.0
 11
-57.6114483036
 21
145.0851694922
 31
0.0
  0
LINE
  5
9D
330
1F
100
AcDbEntity
  8
0
  6
Continuous
 62
     7
370
    25
100
AcDbLine
 10
-57.6114483036
 20
70.085166512
 30
0.0
 11
11.9030721627
 21
70.085166512
 31
0.0
  0
LINE
  5
9E
330
1F
100
AcDbEntity
  8
0
  6
Continuous
 62
     7
370
    25
100
AcDbLine
 10
-213.0969218768
 20
177.5851683001
 30
0.0
 11
-213.0969218768
 21
37.5851677041
 31
0.0
  0
LINE
  5
9F
330
1F
100
AcDbEntity
  8
0
  6
Continuous
 62
     7
370
    25
100
AcDbLine
 10
11.9030721627
 20
145.0851694922
 30
0.0
 11
11.9030721627
 21
70.085166512
 31
0.0
  0
LINE
  5
A0
330
1F
100
AcDbEntity
  8
0
  6
Continuous
 62
     1
370
    25
100
AcDbLine
 10
-120.6654753394
 20
177.362597106
 30
0.0
 11
-120.6654753394
 21
37.8077388983
 31
0.0
  0
LINE
  5
A1
330
1F
100
AcDbEntity
  8
0
  6
Continuous
 62
     1
370
    25
100
AcDbLine
 10
-121.5824015297
 20
177.5851683001
 30
0.0
 11
-121.5824015297
 21
37.5851677041
 31
0.0
  0
LINE
  5
A2
330
1F
100
AcDbEntity
  8
0
  6
Continuous
 62
     1
370
    25
100
AcDbLine
 10
-58.5283763565
 20
145.3077406864
 30
0.0
 11
-58.5283763565
 21
69.8625953178
 31
0.0
  0
LINE
  5
A3
330
1F
100
AcDbEntity
  8
0
  6
Continuous
 62
     1
370
    25
100
AcDbLine
 10
-57.6114483036
 20
145.0851694922
 30
0.0
 11
-57.6114483036
 21
70.085166512
 31
0.0
  0
ARC
  5
A4
330
1F
100
AcDbEntity
  8
0
  6
Continuous
 62
     7
370
    25
100
AcDbCircle
 10
401.4193973208
 20
39.5851680021
 30
0.0
 40
1.999999999999993
100
AcDbArc
 50
242.7120120545
 51
270.0
  0
ARC
  5
A5
330
1F
100
AcDbEntity
  8
0
  6
Continuous
 62
     7
370
    25
100
AcDbCircle
 10
401.4193973208
 20
175.5851680021
 30
0.0
 40
2.000000000000004
100
AcDbArc
 50
90.0
 51
117.2879879455
  0
LINE
  5
A6
330
1F
100
AcDbEntity
  8
0
  6
Continuous
 62
     7
370
    25
100
AcDbLine
 10
401.4193965194
 20
37.5851677041
 30
0.0
 11
492.9339168665
 21
37.5851677041
 31
0.0
  0
LINE
  5
A7
330
1F
100
AcDbEntity
  8
0
  6
Continuous
 62
     7
370
    25
100
AcDbLine
 10
492.9339168665
 20
177.5851683001
 30
0.0
 11
401.4193965194
 21
177.5851683001
 31
0.0
  0
LINE
  5
A8
330
1F
100
AcDbEntity
  8
0
  6
Continuous
 62
     7
370
    25
100
AcDbLine
 10
400.5024703291
 20
177.362597106
 30
0.0
 11
338.3653713462
 21
145.3077406864
 31
0.0
  0
LINE
  5
A9
330
1F
100
AcDbEntity
  8
0
  6
Continuous
 62
     7
370
    25
100
AcDbLine
 10
338.3653713462
 20
69.8625953178
 30
0.0
 11
400.5024703291
 21
37.8077388983
 31
0.0
  0
ARC
  5
AA
330
1F
100
AcDbEntity
  8
0
  6
Continuous
 62
     7
370
    25
100
AcDbCircle
 10
337.4484437533
 20
68.0851680021
 30
0.0
 40
2.000000000000004
100
AcDbArc
 50
62.7120120545
 51
90.0
  0
ARC
  5
AB
330
1F
100
AcDbEntity
  8
0
  6
Continuous
 62
     7
370
    25
100
AcDbCircle
 10
337.4484437533
 20
147.0851680021
 30
0.0
 40
2.00000000000003
100
AcDbArc
 50
270.0
 51
297.2879879455
  0
LINE
  5
AC
330
1F
100
AcDbEntity
  8
0
  6
Continuous
 62
     7
370
    25
100
AcDbLine
 10
267.933922827
 20
70.085166512
 30
0.0
 11
337.4484432933
 21
70.085166512
 31
0.0
  0
LINE
  5
AD
330
1F
100
AcDbEntity
  8
0
  6
Continuous
 62
     7
370
    25
100
AcDbLine
 10
337.4484432933
 20
145.0851694922
 30
0.0
 11
267.933922827
 21
145.0851694922
 31
0.0
  0
LINE
  5
AE
330
1F
100
AcDbEntity
  8
0
  6
Continuous
 62
     7
370
    25
100
AcDbLine
 10
492.9339168665
 20
107.5851680021
 30
0.0
 11
492.9339168665
 21
177.5851683001
 31
0.0
  0
LINE
  5
AF
330
1F
100
AcDbEntity
  8
0
  6
Continuous
 62
     7
370
    25
100
AcDbLine
 10
492.9339168665
 20
37.5851677041
 30
0.0
 11
492.9339168665
 21
107.5851680021
 31
0.0
  0
LINE
  5
B0
330
1F
100
AcDbEntity
  8
0
  6
Continuous
 62
     7
370
    25
100
AcDbLine
 10
267.933922827
 20
107.5851680021
 30
0.0
 11
267.933922827
 21
145.0851694922
 31
0.0
  0
LINE
  5
B1
330
1F
100
AcDbEntity
  8
0
  6
Continuous
 62
     7
370
    25
100
AcDbLine
 10
267.933922827
 20
70.085166512
 30
0.0
 11
267.933922827
 21
107.5851680021
 31
0.0
  0
LINE
  5
B2
330
1F
100
AcDbEntity
  8
0
  6
Continuous
 62
     1
370
    25
100
AcDbLine
 10
400.5024703291
 20
107.5851680021
 30
0.0
 11
400.5024703291
 21
177.362597106
 31
0.0
  0
LINE
  5
B3
330
1F
100
AcDbEntity
  8
0
  6
Continuous
 62
     1
370
    25
100
AcDbLine
 10
400.5024703291
 20
37.8077388983
 30
0.0
 11
400.5024703291
 21
107.5851680021
 31
0.0
  0
LINE
  5
B4
330
1F
100
AcDbEntity
  8
0
  6
Continuous
 62
     1
370
    25
100
AcDbLine
 10
401.4193965194
 20
107.5851680021
 30
0.0
 11
401.4193965194
 21
177.5851683001
 31
0.0
  0
LINE
  5
B5
330
1F
100
AcDbEntity
  8
0
  6
Continuous
 62
     1
370
    25
100
AcDbLine
 10
401.4193965194
 20
37.5851677041
 30
0.0
 11
401.4193965194
 21
107.5851680021
 31
0.0
  0
LINE
  5
B6
330
1F
100
AcDbEntity
  8
0
  6
Continuous
 62
     1
370
    25
100
AcDbLine
 10
338.3653713462
 20
107.5851680021
 30
0.0
 11
338.3653713462
 21
145.3077406864
 31
0.0
  0
LINE
  5
B7
330
1F
100
AcDbEntity
  8
0
  6
Continuous
 62
     1
370
    25
100
AcDbLine
 10
338.3653713462
 20
69.8625953178
 30
0.0
 11
338.3653713462
 21
107.5851680021
 31
0.0
  0
LINE
  5
B8
330
1F
100
AcDbEntity
  8
0
  6
Continuous
 62
     1
370
    25
100
AcDbLine
 10
337.4484432933
 20
107.5851680021
 30
0.0
 11
337.4484432933
 21
145.0851694922
 31
0.0
  0
LINE
  5
B9
330
1F
100
AcDbEntity
  8
0
  6
Continuous
 62
     1
370
    25
100
AcDbLine
 10
337.4484432933
 20
70.085166512
 30
0.0
 11
337.4484432933
 21
107.5851680021
 31
0.0
  0
ARC
  5
BA
330
1F
100
AcDbEntity
  8
0
  6
Continuous
 62
     7
370
    25
100
AcDbCircle
 10
207.395004093
 20
340.4271128081
 30
0.0
 40
2.0
100
AcDbArc
 50
332.7120120545
 51
0.0
  0
ARC
  5
BB
330
1F
100
AcDbEntity
  8
0
  6
Continuous
 62
     7
370
    25
100
AcDbCircle
 10
71.395004093
 20
340.4271128081
 30
0.0
 40
2.0
100
AcDbArc
 50
180.0
 51
207.2879879455
  0
LINE
  5
BC
330
1F
100
AcDbEntity
  8
0
  6
Continuous
 62
     7
370
    25
100
AcDbLine
 10
209.3950043911
 20
340.4271120067
 30
0.0
 11
209.3950043911
 21
431.9416323538
 31
0.0
  0
LINE
  5
BD
330
1F
100
AcDbEntity
  8
0
  6
Continuous
 62
     7
370
    25
100
AcDbLine
 10
69.395003795
 20
431.9416323538
 30
0.0
 11
69.395003795
 21
340.4271120067
 31
0.0
  0
LINE
  5
BE
330
1F
100
AcDbEntity
  8
0
  6
Continuous
 62
     7
370
    25
100
AcDbLine
 10
69.6175749892
 20
339.5101858164
 30
0.0
 11
101.6724314088
 21
277.3730868335
 31
0.0
  0
LINE
  5
BF
330
1F
100
AcDbEntity
  8
0
  6
Continuous
 62
     7
370
    25
100
AcDbLine
 10
177.1175767773
 20
277.3730868335
 30
0.0
 11
209.1724331969
 21
339.5101858164
 31
0.0
  0
ARC
  5
C0
330
1F
100
AcDbEntity
  8
0
  6
Continuous
 62
     7
370
    25
100
AcDbCircle
 10
178.895004093
 20
276.4561592406
 30
0.0
 40
2.0
100
AcDbArc
 50
152.7120120545
 51
180.0
  0
ARC
  5
C1
330
1F
100
AcDbEntity
  8
0
  6
Continuous
 62
     7
370
    25
100
AcDbCircle
 10
99.895004093
 20
276.4561592406
 30
0.0
 40
2.000000000000004
100
AcDbArc
 50
0.0
 51
27.2879879455
  0
LINE
  5
C2
330
1F
100
AcDbEntity
  8
0
  6
Continuous
 62
     7
370
    25
100
AcDbLine
 10
176.8950055832
 20
206.9416383143
 30
0.0
 11
176.8950055832
 21
276.4561587806
 31
0.0
  0
LINE
  5
C3
330
1F
100
AcDbEntity
  8
0
  6
Continuous
 62
     7
370
    25
100
AcDbLine
 10
101.8950026029
 20
276.4561587806
 30
0.0
 11
101.8950026029
 21
206.9416383143
 31
0.0
  0
LINE
  5
C4
330
1F
100
AcDbEntity
  8
0
  6
Continuous
 62
     7
370
    25
100
AcDbLine
 10
209.3950043911
 20
431.9416323538
 30
0.0
 11
69.395003795
 21
431.9416323538
 31
0.0
  0
LINE
  5
C5
330
1F
100
AcDbEntity
  8
0
  6
Continuous
 62
     7
370
    25
100
AcDbLine
 10
176.8950055832
 20
206.9416383143
 30
0.0
 11
101.8950026029
 21
206.9416383143
 31
0.0
  0
LINE
  5
C6
330
1F
100
AcDbEntity
  8
0
  6
Continuous
 62
     1
370
    25
100
AcDbLine
 10
209.1724331969
 20
339.5101858164
 30
0.0
 11
69.6175749892
 21
339.5101858164
 31
0.0
  0
LINE
  5
C7
330
1F
100
AcDbEntity
  8
0
  6
Continuous
 62
     1
370
    25
100
AcDbLine
 10
209.3950043911
 20
340.4271120067
 30
0.0
 11
69.395003795
 21
340.4271120067
 31
0.0
  0
LINE
  5
C8
330
1F
100
AcDbEntity
  8
0
  6
Continuous
 62
     1
370
    25
100
AcDbLine
 10
177.1175767773
 20
277.3730868335
 30
0.0
 11
101.6724314088
 21
277.3730868335
 31
0.0
  0
LINE
  5
C9
330
1F
100
AcDbEntity
  8
0
  6
Continuous
 62
     1
370
    25
100
AcDbLine
 10
176.8950055832
 20
276.4561587806
 30
0.0
 11
101.8950026029
 21
276.4561587806
 31
0.0
  0
ARC
  5
CA
330
1F
100
AcDbEntity
  8
0
  6
Continuous
 62
     7
370
    25
100
AcDbCircle
 10
71.395004093
 20
-120.9702823563
 30
0.0
 40
2.0
100
AcDbArc
 50
152.7120120545
 51
180.0
  0
ARC
  5
CB
330
1F
100
AcDbEntity
  8
0
  6
Continuous
 62
     7
370
    25
100
AcDbCircle
 10
207.395004093
 20
-120.9702823563
 30
0.0
 40
2.0
100
AcDbArc
 50
0.0
 51
27.2879879455
  0
LINE
  5
CC
330
1F
100
AcDbEntity
  8
0
  6
Continuous
 62
     7
370
    25
100
AcDbLine
 10
69.395003795
 20
-120.9702815549
 30
0.0
 11
69.395003795
 21
-212.484801902
 31
0.0
  0
LINE
  5
CD
330
1F
100
AcDbEntity
  8
0
  6
Continuous
 62
     7
370
    25
100
AcDbLine
 10
209.3950043911
 20
-212.484801902
 30
0.0
 11
209.3950043911
 21
-120.9702815549
 31
0.0
  0
LINE
  5
CE
330
1F
100
AcDbEntity
  8
0
  6
Continuous
 62
     7
370
    25
100
AcDbLine
 10
209.1724331969
 20
-120.0533553646
 30
0.0
 11
177.1175767773
 21
-57.9162563817
 31
0.0
  0
LINE
  5
CF
330
1F
100
AcDbEntity
  8
0
  6
Continuous
 62
     7
370
    25
100
AcDbLine
 10
101.6724314088
 20
-57.9162563817
 30
0.0
 11
69.6175749892
 21
-120.0533553646
 31
0.0
  0
ARC
  5
D0
330
1F
100
AcDbEntity
  8
0
  6
Continuous
 62
     7
370
    25
100
AcDbCircle
 10
99.895004093
 20
-56.9993287888
 30
0.0
 40
2.000000000000001
100
AcDbArc
 50
332.7120120545
 51
0.0
  0
ARC
  5
D1
330
1F
100
AcDbEntity
  8
0
  6
Continuous
 62
     7
370
    25
100
AcDbCircle
 10
178.895004093
 20
-56.9993287888
 30
0.0
 40
2.0
100
AcDbArc
 50
180.0
 51
207.2879879455
  0
LINE
  5
D2
330
1F
100
AcDbEntity
  8
0
  6
Continuous
 62
     7
370
    25
100
AcDbLine
 10
101.8950026029
 20
12.5151921375
 30
0.0
 11
101.8950026029
 21
-56.9993283288
 31
0.0
  0
LINE
  5
D3
330
1F
100
AcDbEntity
  8
0
  6
Continuous
 62
     7
370
    25
100
AcDbLine
 10
176.8950055832
 20
-56.9993283288
 30
0.0
 11
176.8950055832
 21
12.5151921375
 31
0.0
  0
LINE
  5
D4
330
1F
100
AcDbEntity
  8
0
  6
Continuous
 62
     7
370
    25
100
AcDbLine
 10
69.395003795
 20
-212.484801902
 30
0.0
 11
209.3950043911
 21
-212.484801902
 31
0.0
  0
LINE
  5
D5
330
1F
100
AcDbEntity
  8
0
  6
Continuous
 62
     7
370
    25
100
AcDbLine
 10
101.8950026029
 20
12.5151921375
 30
0.0
 11
176.8950055832
 21
12.5151921375
 31
0.0
  0
LINE
  5
D6
330
1F
100
AcDbEntity
  8
0
  6
Continuous
 62
     1
370
    25
100
AcDbLine
 10
69.6175749892
 20
-120.0533553646
 30
0.0
 11
209.1724331969
 21
-120.0533553646
 31
0.0
  0
LINE
  5
D7
330
1F
100
AcDbEntity
  8
0
  6
Continuous
 62
     1
370
    25
100
AcDbLine
 10
69.395003795
 20
-120.9702815549
 30
0.0
 11
209.3950043911
 21
-120.9702815549
 31
0.0
  0
LINE
  5
D8
330
1F
100
AcDbEntity
  8
0
  6
Continuous
 62
     1
370
    25
100
AcDbLine
 10
101.6724314088
 20
-57.9162563817
 30
0.0
 11
177.1175767773
 21
-57.9162563817
 31
0.0
  0
LINE
  5
D9
330
1F
100
AcDbEntity
  8
0
  6
Continuous
 62
     1
370
    25
100
AcDbLine
 10
101.8950026029
 20
-56.9993283288
 30
0.0
 11
176.8950055832
 21
-56.9993283288
 31
0.0
  0
LINE
  5
DA
330
1F
100
AcDbEntity
  8
0
  6
Continuous
 62
     7
370
    25
100
AcDbLine
 10
386.9443369399
 20
-16.2934606153
 30
0.0
 11
322.2337990254
 21
21.0631377652
 31
0.0
  0
LINE
  5
DB
330
1F
100
AcDbEntity
  8
0
  6
Continuous
 62
     7
370
    25
100
AcDbLine
 10
252.2394898372
 20
-100.1837024324
 30
0.0
 11
316.9500277517
 21
-137.5403008129
 31
0.0
  0
SPLINE
  5
DC
330
1F
100
AcDbEntity
  8
0
  6
Continuous
 62
     7
370
    25
100
AcDbSpline
210
0.0
220
0.0
230
1.0
 70
     8
 71
     3
 72
    13
 73
     9
 74
     0
 42
0.000000001
 43
0.00000001
 40
0.0
 40
0.0
 40
0.0
 40
0.0
 40
0.05043855819354
 40
0.2673967008956032
 40
0.4835180915210882
 40
0.6987899701304242
 40
0.9132714541284347
 40
1.0
 40
1.0
 40
1.0
 40
1.0
 10
396.2413903977709
 20
-25.5412251400973
 30
0.0
 10
396.1506327110492
 20
-25.38429839388658
 30
0.0
 10
395.6694868004705
 20
-24.55236156377316
 30
0.0
 10
394.6773911216383
 20
-23.17887814682922
 30
0.0
 10
393.2678915833279
 20
-21.43277721471025
 30
0.0
 10
391.7324868510748
 20
-19.85768983461267
 30
0.0
 10
390.4376939863824
 20
-18.68627225967392
 30
0.0
 10
389.6192469808602
 20
-18.09806967581618
 30
0.0
 10
389.3835884315994
 20
-17.92870627580601
 30
0.0
  0
SPLINE
  5
DD
330
1F
100
AcDbEntity
  8
0
  6
Continuous
 62
     7
370
    25
100
AcDbSpline
210
0.0
220
0.0
230
1.0
 70
     8
 71
     3
 72
    12
 73
     8
 74
     0
 42
0.000000001
 43
0.00000001
 40
0.0
 40
0.0
 40
0.0
 40
0.0
 40
0.1756812944350628
 40
0.4097145568365149
 40
0.6442737997257
 40
0.8795581088819191
 40
1.0
 40
1.0
 40
1.0
 40
1.0
 10
319.7121069808494
 20
-138.8941335660685
 30
0.0
 10
320.2081843950995
 20
-139.0999960473494
 30
0.0
 10
321.365109715975
 20
-139.5800975604811
 30
0.0
 10
323.276304058485
 20
-140.1420975883411
 30
0.0
 10
325.4272788950951
 20
-140.5995290327321
 30
0.0
 10
327.2780724181762
 20
-140.8639198923826
 30
0.0
 10
328.4294990676129
 20
-140.9128788496537
 30
0.0
 10
328.8193494723202
 20
-140.929455389128
 30
0.0
  0
LINE
  5
DE
330
1F
100
AcDbEntity
  8
0
  6
Continuous
 62
     7
370
    25
100
AcDbLine
 10
332.8425717273
 20
-140.9052540257
 30
0.0
 11
385.8543990225
 21
-137.0463791807
 31
0.0
  0
LINE
  5
DF
330
1F
100
AcDbEntity
  8
0
  6
Continuous
 62
     7
370
    25
100
AcDbLine
 10
420.9743978505
 20
-76.2101653349
 30
0.0
 11
397.8058814145
 21
-28.3733111298
 31
0.0
  0
LINE
  5
E0
330
1F
100
AcDbEntity
  8
0
  6
Continuous
 62
     7
370
    25
100
AcDbLine
 10
465.0841423175
 20
-98.9293595787
 30
0.0
 11
419.1290784309
 21
-72.4000658889
 31
0.0
  0
LINE
  5
E1
330
1F
100
AcDbEntity
  8
0
  6
Continuous
 62
     7
370
    25
100
AcDbLine
 10
381.632125763
 20
-137.3537316926
 30
0.0
 11
427.5871896496
 21
-163.8830253825
 31
0.0
  0
LWPOLYLINE
  5
E2
330
1F
100
AcDbEntity
  8
0
  6
Continuous
 62
     7
370
    25
100
AcDbPolyline
 90
      117
 70
   128
 43
0.0
 10
237.7391695375
 20
-68.1345663691
 10
237.8117622157
 20
-64.9981955081
 10
238.0293242477
 20
-61.7872121255
 10
238.3912234308
 20
-58.5110312626
 10
238.896395557
 20
-55.1792641202
 10
239.54335495
 20
-51.8016855488
 10
240.3302050016
 20
-48.3882026809
 10
241.2546434401
 20
-44.9488222317
 10
242.3139517939
 20
-41.4936398515
 10
243.5050296353
 20
-38.0327846151
 10
244.8243787761
 20
-34.5764098947
 10
246.2681296085
 20
-31.1346538185
 10
247.8320490086
 20
-27.7176103738
 10
249.5115482382
 20
-24.3353050726
 10
251.3017013844
 20
-20.9976569308
 10
253.1972585303
 20
-17.714455655
 10
255.1926589262
 20
-14.4953327464
 10
257.2820494285
 20
-11.349729563
 10
259.459302939
 20
-8.2868714657
 10
261.7180315761
 20
-5.3157450055
 10
264.0516103819
 20
-2.4450629447
 10
266.4531944449
 20
0.3167547535
 10
268.9157399729
 20
2.9616022156
 10
271.432025367
 20
5.4817302419
 10
273.9946670262
 20
7.8697371794
 10
276.5961502989
 20
10.1186263339
 10
279.2288439715
 20
12.2218021665
 10
281.8850259511
 20
14.1730912035
 10
284.5569051622
 20
15.9667668447
 10
287.2366444313
 20
17.5975747417
 10
289.9163837004
 20
19.0607279479
 10
292.5882629115
 20
20.3519383802
 10
295.244444891
 20
21.467411779
 10
297.8771385636
 20
22.4038793602
 10
300.4786218364
 20
23.1585988587
 10
303.0412634955
 20
23.7293550018
 10
305.5575488896
 20
24.1144682518
 10
308.0200944177
 20
24.3128153373
 10
310.4216784807
 20
24.3238075773
 10
312.7552572865
 20
24.147418256
 10
315.0139859235
 20
23.7841643701
 10
317.1912394341
 20
23.2351096682
 10
319.2806299363
 20
22.5018654102
 10
321.2760303322
 20
21.5865827601
 10
323.1715874782
 20
20.4919451801
 10
324.9617406243
 20
19.2211638664
 10
326.6412398539
 20
17.7779671007
 10
328.205159254
 20
16.1665865606
 10
329.6489100865
 20
14.3917497142
 10
330.9682592272
 20
12.4586630876
 10
332.1593370687
 20
10.3729970552
 10
333.2186454224
 20
8.1408660669
 10
334.1430838609
 20
5.76881952
 10
334.9299339125
 20
3.2638143842
 10
335.5768933055
 20
0.6331992283
 10
336.0820654318
 20
-2.1153085922
 10
336.4439646149
 20
-4.9736495522
 10
336.6615266469
 20
-7.9334411595
 10
336.7341193251
 20
-10.9859982982
 10
336.6615266469
 20
-14.1223691591
 10
336.4439646149
 20
-17.3333525418
 10
336.0820654318
 20
-20.6095334046
 10
335.5768933055
 20
-23.9413005471
 10
334.9299339125
 20
-27.3188791185
 10
334.1430838609
 20
-30.7323619864
 10
333.2186454224
 20
-34.1717424356
 10
332.1593370687
 20
-37.6269248158
 10
330.9682592272
 20
-41.0877800522
 10
329.6489100865
 20
-44.5441547726
 10
328.205159254
 20
-47.9859108488
 10
326.6412398539
 20
-51.4029542935
 10
324.9617406243
 20
-54.7852595946
 10
323.1715874782
 20
-58.1229077364
 10
321.2760303322
 20
-61.4061090123
 10
319.2806299363
 20
-64.6252319209
 10
317.1912394341
 20
-67.7708351043
 10
315.0139859235
 20
-70.8336932016
 10
312.7552572865
 20
-73.8048196617
 10
310.4216784807
 20
-76.6755017226
 10
308.0200944177
 20
-79.4373194208
 10
305.5575488896
 20
-82.0821668828
 10
303.0412634955
 20
-84.6022949091
 10
300.4786218364
 20
-86.9903018466
 10
297.8771385636
 20
-89.2391910012
 10
295.244444891
 20
-91.3423668338
 10
292.5882629115
 20
-93.2936558707
 10
289.9163837004
 20
-95.0873315119
 10
287.2366444313
 20
-96.718139409
 10
284.5569051622
 20
-98.1812926152
 10
281.8850259511
 20
-99.4725030475
 10
279.2288439715
 20
-100.5879764463
 10
276.5961502989
 20
-101.5244440275
 10
273.9946670262
 20
-102.279163526
 10
271.432025367
 20
-102.8499196691
 10
268.9157399729
 20
-103.235032919
 10
266.4531944449
 20
-103.4333800046
 10
264.0516103819
 20
-103.4443722446
 10
261.7180315761
 20
-103.2679829233
 10
259.459302939
 20
-102.9047290373
 10
257.2820494285
 20
-102.3556743355
 10
255.1926589262
 20
-101.6224300775
 10
253.1972585303
 20
-100.7071474273
 10
251.3017013844
 20
-99.6125098474
 10
249.5115482382
 20
-98.3417285337
 10
247.8320490086
 20
-96.8985317679
 10
246.2681296085
 20
-95.2871512279
 10
244.8243787761
 20
-93.5123143815
 10
243.5050296353
 20
-91.5792277549
 10
242.3139517939
 20
-89.4935617225
 10
241.2546434401
 20
-87.2614307342
 10
240.3302050016
 20
-84.8893841873
 10
239.54335495
 20
-82.3843790514
 10
238.896395557
 20
-79.7537638956
 10
238.3912234308
 20
-77.0052560751
 10
238.0293242477
 20
-74.1469151151
 10
237.8117622157
 20
-71.1871235078
 10
237.7391695375
 20
-68.1345663691
  0
LWPOLYLINE
  5
E3
330
1F
100
AcDbEntity
  8
0
  6
Continuous
 62
     7
370
    25
100
AcDbPolyline
 90
      106
 70
   128
 43
0.0
 10
246.7194248915
 20
-62.9503753018
 10
246.7919464469
 20
-60.1104053024
 10
247.0092476953
 20
-57.1968725825
 10
247.3705541883
 20
-54.2202037761
 10
247.8745699104
 20
-51.1910574095
 10
248.5194930838
 20
-48.120275233
 10
249.3030109001
 20
-45.0188525626
 10
250.2223232282
 20
-41.8978865705
 10
251.2741373455
 20
-38.7685542314
 10
252.4546863773
 20
-35.6420568101
 10
253.7597477364
 20
-32.5295833614
 10
255.1846457567
 20
-29.4422787907
 10
256.7242833037
 20
-26.3911951875
 10
258.3731470428
 20
-23.3872538023
 10
260.125333781
 20
-20.4412055056
 10
261.9745715404
 20
-17.5636003712
 10
263.9142432659
 20
-14.7647374874
 10
265.9373999957
 20
-12.0546360613
 10
268.0368043257
 20
-9.442995118
 10
270.2049383119
 20
-6.9391706874
 10
272.4340416657
 20
-4.5521202943
 10
274.7161354619
 20
-2.29038623
 10
277.0430484802
 20
-0.1620712204
 10
279.4064521082
 20
1.8252060581
 10
281.7978860247
 20
3.6643379724
 10
284.2087888217
 20
5.3487334434
 10
286.6305308498
 20
6.8723673254
 10
289.0544426174
 20
8.2297876754
 10
291.4718468951
 20
9.4161282024
 10
293.8740908196
 20
10.427148094
 10
296.2525737998
 20
11.259223791
 10
298.5987828308
 20
11.9093815418
 10
300.9043168602
 20
12.3752871332
 10
303.1609249839
 20
12.6552801083
 10
305.360529495
 20
12.7483536117
 10
307.4952542012
 20
12.6541768207
 10
309.557457352
 20
12.3730865768
 10
311.5397579805
 20
11.9060843419
 10
313.4350622454
 20
11.2548514046
 10
315.2365818698
 20
10.4217108554
 10
316.9378683859
 20
9.4096473559
 10
318.5328315741
 20
8.2222843228
 10
320.0157631706
 20
6.8638732791
 10
321.3813526725
 20
5.3392725603
 10
322.6247163137
 20
3.6539473108
 10
323.741397065
 20
1.8139238569
 10
324.7274015125
 20
-0.1742087763
 10
325.5791972234
 20
-2.3033323247
 10
326.293739088
 20
-4.5658259038
 10
326.868464051
 20
-6.9535918643
 10
327.3013200877
 20
-9.4580793689
 10
327.5907530332
 20
-12.0703262166
 10
327.7357276553
 20
-14.780980708
 10
327.7357276553
 20
-17.5803377673
 10
327.5907530332
 20
-20.4583763946
 10
327.3013200877
 20
-23.404795408
 10
326.868464051
 20
-26.4090478549
 10
326.293739088
 20
-29.4603771334
 10
325.5791972234
 20
-32.5478631889
 10
324.7274015125
 20
-35.6604491315
 10
323.741397065
 20
-38.7869982679
 10
322.6247163137
 20
-41.9163138739
 10
321.3813526725
 20
-45.0371962268
 10
320.0157631706
 20
-48.138473024
 10
318.5328315741
 20
-51.2090404447
 10
316.9378683859
 20
-54.2379087774
 10
315.2365818698
 20
-57.2142358779
 10
313.4350622454
 20
-60.1273667115
 10
311.5397579805
 20
-62.9668713744
 10
309.557457352
 20
-65.7225891983
 10
307.4952542012
 20
-68.3846485197
 10
305.360529495
 20
-70.9435259939
 10
303.1609249839
 20
-73.3900618019
 10
300.9043168602
 20
-75.7154931085
 10
298.5987828308
 20
-77.911500447
 10
296.2525737998
 20
-79.9702179833
 10
293.8740908196
 20
-81.884280282
 10
291.4718468951
 20
-83.6468321886
 10
289.0544426174
 20
-85.2515672309
 10
286.6305308498
 20
-86.6927358381
 10
284.2087888217
 20
-87.9651857854
 10
281.7978860247
 20
-89.0643594339
 10
279.4064521082
 20
-89.986318348
 10
277.0430484802
 20
-90.7277688159
 10
274.7161354619
 20
-91.2860503914
 10
272.4340416657
 20
-91.6591657399
 10
270.2049383119
 20
-91.845783297
 10
268.0368043257
 20
-91.8452330831
 10
265.9373999957
 20
-91.6575127847
 10
263.9142432659
 20
-91.2832983981
 10
261.9745715404
 20
-90.7239328195
 10
260.125333781
 20
-89.9814121555
 10
258.3731470428
 20
-89.0583956054
 10
256.7242833037
 20
-87.9581917712
 10
255.1846457567
 20
-86.6847358418
 10
253.7597477364
 20
-85.2425835073
 10
252.4546863773
 20
-83.6369018308
 10
251.2741373455
 20
-81.8734373087
 10
250.2223232282
 20
-79.9585037002
 10
249.3030109001
 20
-77.8989531292
 10
248.5194930838
 20
-75.702160874
 10
247.8745699104
 20
-73.375991144
 10
247.3705541883
 20
-70.9287689435
 10
247.0092476953
 20
-68.3692557345
 10
246.7919464469
 20
-65.7066136957
 10
246.7194248915
 20
-62.9503753018
  0
LWPOLYLINE
  5
E4
330
1F
100
AcDbEntity
  8
0
  6
Continuous
 62
     7
370
    25
100
AcDbPolyline
 90
        3
 70
   128
 43
0.0
 10
386.9443369399
 20
-16.2934606153
 10
387.8821253926
 20
-16.8646532004
 10
389.2641337262
 20
-17.8232383672
  0
LWPOLYLINE
  5
E5
330
1F
100
AcDbEntity
  8
0
  6
Continuous
 62
     7
370
    25
100
AcDbPolyline
 90
        3
 70
   128
 43
0.0
 10
319.5565047674
 20
-138.8359239593
 10
317.9077964448
 20
-138.0637458078
 10
316.9500277517
 20
-137.5403008129
  0
ARC
  5
E6
330
1F
100
AcDbEntity
  8
0
  6
Continuous
 62
     7
370
    25
100
AcDbCircle
 10
366.5094978145
 20
-43.6262754544
 30
0.0
 40
34.81056523407706
100
AcDbArc
 50
16.3501278432
 51
31.121290709
  0
ARC
  5
E7
330
1F
100
AcDbEntity
  8
0
  6
Continuous
 62
     7
370
    25
100
AcDbCircle
 10
330.5218662365
 20
-107.2511829022
 30
0.0
 40
33.73416529637922
100
AcDbArc
 50
267.356552389
 51
283.3947535788
  0
LWPOLYLINE
  5
E8
330
1F
100
AcDbEntity
  8
0
  6
Continuous
 62
     7
370
    25
100
AcDbPolyline
 90
       45
 70
   128
 43
0.0
 10
465.0841423175
 20
-98.9293595787
 10
465.2581126544
 20
-99.0316726106
 10
466.57831922
 20
-99.9418584013
 10
467.7879680166
 20
-101.0238931082
 10
468.8804525256
 20
-102.2718642729
 10
469.8498036996
 20
-103.6789575877
 10
470.6907307919
 20
-105.2374857974
 10
471.3986371621
 20
-106.9389404117
 10
471.9696584708
 20
-108.7740259302
 10
472.4006758512
 20
-110.7327206802
 10
472.6893369825
 20
-112.8043258688
 10
472.8340613578
 20
-114.977529177
 10
472.8340613578
 20
-117.2404597052
 10
472.6893369825
 20
-119.5807582204
 10
472.4006758512
 20
-121.985644457
 10
471.9696584708
 20
-124.4419812819
 10
471.3986371621
 20
-126.9363539701
 10
470.6907307919
 20
-129.455139882
 10
469.8498036996
 20
-131.984581846
 10
468.8804525256
 20
-134.5108642037
 10
467.7879680166
 20
-137.0201911337
 10
466.57831922
 20
-139.4988566131
 10
465.2581126544
 20
-141.9333204593
 10
463.8345580649
 20
-144.3102904577
 10
462.3154302281
 20
-146.6167824339
 10
460.7090254876
 20
-148.8401985776
 10
459.0241196076
 20
-150.9683974013
 10
457.2699137719
 20
-152.9897538118
 10
455.4559891446
 20
-154.8932279275
 10
453.5922515522
 20
-156.6684259107
 10
451.6888817635
 20
-158.3056499631
 10
449.7562742449
 20
-159.7959549745
 10
447.8049846419
 20
-161.1312092602
 10
445.8456700155
 20
-162.3041138516
 10
443.889031714
 20
-163.308262853
 10
441.9457559391
 20
-164.1381777517
 10
440.0264566172
 20
-164.7893191051
 10
438.1416153075
 20
-165.2581333979
 10
436.301528024
 20
-165.5420624485
 10
434.5162434974
 20
-165.6395516731
 10
432.795511479
 20
-165.550070803
 10
431.1487326919
 20
-165.274106276
 10
429.5848989026
 20
-164.8131669337
 10
428.1125514334
 20
-164.1697729911
 10
427.5871896496
 20
-163.8830253825
  0
LWPOLYLINE
  5
E9
330
1F
100
AcDbEntity
  8
0
  6
Continuous
 62
     1
370
    25
100
AcDbPolyline
 90
       58
 70
   128
 43
0.0
 10
389.2641337262
 20
-17.8232383672
 10
389.6722785388
 20
-18.1354345141
 10
391.3517777684
 20
-19.5786312798
 10
392.9156971685
 20
-21.1900118198
 10
394.359448001
 20
-22.9648486662
 10
395.6787971417
 20
-24.8979352928
 10
396.8698749831
 20
-26.9836013253
 10
397.9291833369
 20
-29.2157323136
 10
398.8536217754
 20
-31.5877788605
 10
399.640471827
 20
-34.0927839963
 10
400.28743122
 20
-36.7233991522
 10
400.7926033462
 20
-39.4719069727
 10
401.1545025293
 20
-42.3302479327
 10
401.3720645613
 20
-45.2900395399
 10
401.4446572396
 20
-48.3425966787
 10
401.3720645613
 20
-51.4789675396
 10
401.1545025293
 20
-54.6899509223
 10
400.7926033462
 20
-57.9661317851
 10
400.28743122
 20
-61.2978989275
 10
399.640471827
 20
-64.675477499
 10
398.8536217754
 20
-68.0889603669
 10
397.9291833369
 20
-71.5283408161
 10
396.8698749831
 20
-74.9835231963
 10
395.6787971417
 20
-78.4443784327
 10
394.359448001
 20
-81.9007531531
 10
392.9156971685
 20
-85.3425092292
 10
391.3517777684
 20
-88.759552674
 10
389.6722785388
 20
-92.1418579751
 10
387.8821253926
 20
-95.4795061169
 10
385.9865682467
 20
-98.7627073927
 10
383.9911678508
 20
-101.9818303014
 10
381.9017773485
 20
-105.1274334848
 10
379.724523838
 20
-108.1902915821
 10
377.465795201
 20
-111.1614180422
 10
375.1322163952
 20
-114.032100103
 10
372.7306323322
 20
-116.7939178012
 10
370.2680868041
 20
-119.4387652633
 10
367.75180141
 20
-121.9588932896
 10
365.1891597509
 20
-124.3469002271
 10
362.5876764781
 20
-126.5957893817
 10
359.9549828055
 20
-128.6989652143
 10
357.2988008259
 20
-130.6502542512
 10
354.6269216148
 20
-132.4439298924
 10
351.9471823458
 20
-134.0747377895
 10
349.2674430767
 20
-135.5378909957
 10
346.5955638656
 20
-136.829101428
 10
343.939381886
 20
-137.9445748268
 10
341.3066882134
 20
-138.881042408
 10
338.7052049406
 20
-139.6357619065
 10
336.1425632815
 20
-140.2065180495
 10
333.6262778874
 20
-140.5916312995
 10
331.1637323593
 20
-140.789978385
 10
328.7621482964
 20
-140.800970625
 10
326.4285694905
 20
-140.6245813038
 10
324.1698408535
 20
-140.2613274178
 10
321.992587343
 20
-139.712272716
 10
319.9031968407
 20
-138.979028458
 10
319.5565047674
 20
-138.8359239593
  0
LWPOLYLINE
  5
EA
330
1F
100
AcDbEntity
  8
0
  6
Continuous
 62
     1
370
    25
100
AcDbPolyline
 90
       42
 70
   128
 43
0.0
 10
399.9123018777
 20
-33.8268809511
 10
400.137192193
 20
-34.6032403677
 10
400.7820969272
 20
-37.2254894785
 10
401.2856569365
 20
-39.9652617105
 10
401.6464023496
 20
-42.8145157912
 10
401.8632794953
 20
-45.7648924234
 10
401.9356403658
 20
-48.8077441327
 10
401.8632794953
 20
-51.9341419248
 10
401.6464023496
 20
-55.1349195795
 10
401.2856569365
 20
-58.4006814485
 10
400.7820969272
 20
-61.7218516918
 10
400.137192193
 20
-65.0886919596
 10
399.3528393422
 20
-68.4913247773
 10
398.4313459148
 20
-71.9197654836
 10
397.3754040405
 20
-75.3639625328
 10
396.1881115129
 20
-78.8138172682
 10
394.8729586178
 20
-82.2592006517
 10
393.4337991576
 20
-85.6900110559
 10
391.8748530857
 20
-89.0961894735
 10
390.2006933349
 20
-92.4677408094
 10
388.4162300133
 20
-95.7947795069
 10
386.5267025009
 20
-99.0675371511
 10
384.5376452057
 20
-102.2764278663
 10
382.4548981004
 20
-105.4120300651
 10
380.2845672098
 20
-108.4651488032
 10
378.0330219762
 20
-111.4268264255
 10
375.7068636499
 20
-114.2883790652
 10
373.3129134349
 20
-117.0414186961
 10
370.858198001
 20
-119.6778584547
 10
368.3499139227
 20
-122.1899666297
 10
365.7954197762
 20
-124.570386433
 10
363.202208481
 20
-126.8121276323
 10
360.5778855676
 20
-128.9086095153
 10
357.9301494214
 20
-130.8536905454
 10
355.2667657637
 20
-132.6416709266
 10
352.5955470727
 20
-134.2672923157
 10
349.9243283818
 20
-135.7257943798
 10
347.2609447241
 20
-137.0128913149
 10
344.6132085778
 20
-138.1248213689
 10
341.9888856645
 20
-139.0583182268
 10
339.3956743693
 20
-139.8106350585
 10
338.336683434
 20
-140.0676808935
  0
LWPOLYLINE
  5
EB
330
1F
100
AcDbEntity
  8
0
  6
Continuous
 62
     1
370
    25
100
AcDbPolyline
 90
       35
 70
   128
 43
0.0
 10
420.9743978505
 20
-76.2101653349
 10
421.0327290889
 20
-76.3317650223
 10
421.744836973
 20
-78.0433182176
 10
422.3192484688
 20
-79.8892946433
 10
422.7528236361
 20
-81.8596152097
 10
423.0431969831
 20
-83.9435164834
 10
423.1887827346
 20
-86.129617038
 10
423.1887827346
 20
-88.4059786716
 10
423.0431969831
 20
-90.7601689569
 10
422.7528236361
 20
-93.1793281609
 10
422.3192484688
 20
-95.6502439601
 10
421.744836973
 20
-98.1594217822
 10
421.0327290889
 20
-100.6931572398
 10
420.1868128633
 20
-103.2376110336
 10
419.2117060103
 20
-105.7788891795
 10
418.1127387892
 20
-108.3031084065
 10
416.8959105404
 20
-110.7964858877
 10
415.5678686122
 20
-113.2453985541
 10
414.1358635796
 20
-115.6364773881
 10
412.6077189514
 20
-117.9566583711
 10
410.9917811206
 20
-120.1932722143
 10
409.2968745837
 20
-122.3341036696
 10
407.5322571593
 20
-124.3674569262
 10
405.7075659879
 20
-126.2822293695
 10
403.8327668234
 20
-128.0679621478
 10
401.9180997036
 20
-129.7149019547
 10
399.9740216568
 20
-131.2140553965
 10
398.0111505608
 20
-132.5572305275
 10
396.0402069027
 20
-133.7370978478
 10
394.0719552923
 20
-134.747208858
 10
392.1171457689
 20
-135.5820481927
 10
390.1864542856
 20
-136.2370558111
 10
388.2904269389
 20
-136.7086531089
 10
386.4394176947
 20
-136.9942636589
 10
385.8543990225
 20
-137.0463791807
  0
LWPOLYLINE
  5
EC
330
1F
100
AcDbEntity
  8
0
  6
Continuous
 62
     1
370
    25
100
AcDbPolyline
 90
       37
 70
   128
 43
0.0
 10
420.0909946374
 20
-74.3861707512
 10
420.6956148869
 20
-75.3028483886
 10
421.5365419793
 20
-76.8613765983
 10
422.2444483494
 20
-78.5628312126
 10
422.8154696581
 20
-80.3979167311
 10
423.2464870386
 20
-82.3566114811
 10
423.5351481698
 20
-84.4282166697
 10
423.6798725451
 20
-86.6014199779
 10
423.6798725451
 20
-88.8643505061
 10
423.5351481698
 20
-91.2046490213
 10
423.2464870386
 20
-93.6095352579
 10
422.8154696581
 20
-96.0658720828
 10
422.2444483494
 20
-98.560244771
 10
421.5365419793
 20
-101.0790306829
 10
420.6956148869
 20
-103.6084726469
 10
419.7262637129
 20
-106.1347550046
 10
418.6337792039
 20
-108.6440819347
 10
417.4241304074
 20
-111.122747414
 10
416.1039238417
 20
-113.5572112602
 10
414.6803692522
 20
-115.9341812586
 10
413.1612414154
 20
-118.2406732348
 10
411.5548366749
 20
-120.4640893785
 10
409.8699307949
 20
-122.5922882023
 10
408.1157249592
 20
-124.6136446127
 10
406.3018003319
 20
-126.5171187284
 10
404.4380627395
 20
-128.2923167116
 10
402.5346929508
 20
-129.929540764
 10
400.6020854323
 20
-131.4198457754
 10
398.6507958292
 20
-132.7551000611
 10
396.6914812028
 20
-133.9280046525
 10
394.7348429013
 20
-134.9321536539
 10
392.7915671264
 20
-135.7620685527
 10
390.8722678046
 20
-136.413209906
 10
388.9874264948
 20
-136.8820241988
 10
387.1473392113
 20
-137.1659532494
 10
385.3620546847
 20
-137.263442474
 10
383.8330855587
 20
-137.1935174102
  0
ENDSEC
  0
SECTION
  2
OBJECTS
  0
DICTIONARY
  5
C
330
0
100
AcDbDictionary
281
     1
  3
ACAD_GROUP
350
D
  3
ACAD_LAYOUT
350
1A
  3
ACAD_MLINESTYLE
350
17
  3
ACAD_PLOTSETTINGS
350
19
  3
ACAD_PLOTSTYLENAME
350
E
  3
ACAD_SCALELIST
350
47
  0
DICTIONARY
  5
D
102
{ACAD_REACTORS
330
C
102
}
330
C
100
AcDbDictionary
281
     1
  0
DICTIONARY
  5
1A
102
{ACAD_REACTORS
330
C
102
}
330
C
100
AcDbDictionary
281
     1
  3
Layout1
350
1E
  3
Layout2
350
26
  3
Model
350
22
  0
DICTIONARY
  5
17
102
{ACAD_REACTORS
330
C
102
}
330
C
100
AcDbDictionary
281
     1
  3
Standard
350
18
  0
DICTIONARY
  5
19
102
{ACAD_REACTORS
330
C
102
}
330
C
100
AcDbDictionary
281
     1
  0
ACDBDICTIONARYWDFLT
  5
E
102
{ACAD_REACTORS
330
C
102
}
330
C
100
AcDbDictionary
281
     1
  3
Normal
350
F
100
AcDbDictionaryWithDefault
340
F
  0
DICTIONARY
  5
47
102
{ACAD_REACTORS
330
C
102
}
330
C
100
AcDbDictionary
281
     1
  3
A0
350
48
  3
A1
350
49
  3
A2
350
4A
  3
A3
350
4B
  3
A4
350
4C
  3
A5
350
4D
  3
A6
350
4E
  3
A7
350
4F
  3
A8
350
50
  3
A9
350
51
  3
B0
350
52
  3
B1
350
53
  3
B2
350
54
  3
B3
350
55
  3
B4
350
56
  3
B5
350
57
  3
B6
350
58
  3
B7
350
59
  3
B8
350
5A
  3
B9
350
5B
  3
C0
350
5C
  3
C1
350
5D
  3
C2
350
5E
  3
C3
350
5F
  3
C4
350
60
  3
C5
350
61
  3
C6
350
62
  3
C7
350
63
  3
C8
350
64
  3
C9
350
65
  3
D0
350
66
  3
D1
350
67
  3
D2
350
68
  0
LAYOUT
  5
1E
102
{ACAD_REACTORS
330
1A
102
}
330
1A
100
AcDbPlotSettings
  1

  2
none_device
  4

  6

 40
0.0
 41
0.0
 42
0.0
 43
0.0
 44
0.0
 45
0.0
 46
0.0
 47
0.0
 48
0.0
 49
0.0
140
0.0
141
0.0
142
1.0
143
1.0
 70
   688
 72
     1
 73
     0
 74
     5
  7

 75
    16
147
1.0
148
0.0
149
0.0
100
AcDbLayout
  1
Layout1
 70
     1
 71
     1
 10
0.0
 20
0.0
 11
420.0
 21
297.0
 12
0.0
 22
0.0
 32
0.0
 14
1.0000000000E+20
 24
1.0000000000E+20
 34
1.0000000000E+20
 15
-1.0000000000E+20
 25
-1.0000000000E+20
 35
-1.0000000000E+20
146
0.0
 13
0.0
 23
0.0
 33
0.0
 16
1.0
 26
0.0
 36
0.0
 17
0.0
 27
1.0
 37
0.0
 76
     0
330
1B
  0
LAYOUT
  5
26
102
{ACAD_REACTORS
330
1A
102
}
330
1A
100
AcDbPlotSettings
  1

  2
none_device
  4

  6

 40
0.0
 41
0.0
 42
0.0
 43
0.0
 44
0.0
 45
0.0
 46
0.0
 47
0.0
 48
0.0
 49
0.0
140
0.0
141
0.0
142
1.0
143
1.0
 70
   688
 72
     1
 73
     0
 74
     5
  7

 75
    16
147
1.0
148
0.0
149
0.0
100
AcDbLayout
  1
Layout2
 70
     1
 71
     2
 10
0.0
 20
0.0
 11
0.0
 21
0.0
 12
0.0
 22
0.0
 32
0.0
 14
0.0
 24
0.0
 34
0.0
 15
0.0
 25
0.0
 35
0.0
146
0.0
 13
0.0
 23
0.0
 33
0.0
 16
1.0
 26
0.0
 36
0.0
 17
0.0
 27
1.0
 37
0.0
 76
     0
330
23
  0
LAYOUT
  5
22
102
{ACAD_REACTORS
330
1A
102
}
330
1A
100
AcDbPlotSettings
  1

  2
none_device
  4
Letter_(8.50_x_11.00_Inches)
  6

 40
6.35
 41
6.35
 42
6.35000508
 43
6.35000508
 44
215.9
 45
279.4
 46
0.0
 47
0.0
 48
0.0
 49
0.0
140
0.0
141
0.0
142
1.0
143
1.0
 70
  1712
 72
     1
 73
     0
 74
     0
  7

 75
     0
147
1.0
148
0.0
149
0.0
100
AcDbLayout
  1
Model
 70
     1
 71
     0
 10
0.0
 20
0.0
 11
279.4
 21
215.9
 12
0.0
 22
0.0
 32
0.0
 14
0.0
 24
0.0
 34
0.0
 15
279.4
 25
215.9
 35
0.0
146
0.0
 13
0.0
 23
0.0
 33
0.0
 16
1.0
 26
0.0
 36
0.0
 17
0.0
 27
1.0
 37
0.0
 76
     0
330
1F
331
29
  0
MLINESTYLE
  5
18
102
{ACAD_REACTORS
330
17
102
}
330
17
100
AcDbMlineStyle
  2
Standard
 70
     0
  3

 62
   256
 51
90.0
 52
90.0
 71
     2
 49
0.5
 62
   256
  6
BYLAYER
 49
-0.5
 62
   256
  6
BYLAYER
  0
ACDBPLACEHOLDER
  5
F
102
{ACAD_REACTORS
330
E
102
}
330
E
  0
SCALE
  5
48
102
{ACAD_REACTORS
330
47
102
}
330
47
100
AcDbScale
 70
     0
300
1:1
140
1.0
141
1.0
290
     1
  0
SCALE
  5
49
102
{ACAD_REACTORS
330
47
102
}
330
47
100
AcDbScale
 70
     0
300
1:2
140
1.0
141
2.0
290
     0
  0
SCALE
  5
4A
102
{ACAD_REACTORS
330
47
102
}
330
47
100
AcDbScale
 70
     0
300
1:4
140
1.0
141
4.0
290
     0
  0
SCALE
  5
4B
102
{ACAD_REACTORS
330
47
102
}
330
47
100
AcDbScale
 70
     0
300
1:5
140
1.0
141
5.0
290
     0
  0
SCALE
  5
4C
102
{ACAD_REACTORS
330
47
102
}
330
47
100
AcDbScale
 70
     0
300
1:8
140
1.0
141
8.0
290
     0
  0
SCALE
  5
4D
102
{ACAD_REACTORS
330
47
102
}
330
47
100
AcDbScale
 70
     0
300
1:10
140
1.0
141
10.0
290
     0
  0
SCALE
  5
4E
102
{ACAD_REACTORS
330
47
102
}
330
47
100
AcDbScale
 70
     0
300
1:16
140
1.0
141
16.0
290
     0
  0
SCALE
  5
4F
102
{ACAD_REACTORS
330
47
102
}
330
47
100
AcDbScale
 70
     0
300
1:20
140
1.0
141
20.0
290
     0
  0
SCALE
  5
50
102
{ACAD_REACTORS
330
47
102
}
330
47
100
AcDbScale
 70
     0
300
1:30
140
1.0
141
30.0
290
     0
  0
SCALE
  5
51
102
{ACAD_REACTORS
330
47
102
}
330
47
100
AcDbScale
 70
     0
300
1:40
140
1.0
141
40.0
290
     0
  0
SCALE
  5
52
102
{ACAD_REACTORS
330
47
102
}
330
47
100
AcDbScale
 70
     0
300
1:50
140
1.0
141
50.0
290
     0
  0
SCALE
  5
53
102
{ACAD_REACTORS
330
47
102
}
330
47
100
AcDbScale
 70
     0
300
1:100
140
1.0
141
100.0
290
     0
  0
SCALE
  5
54
102
{ACAD_REACTORS
330
47
102
}
330
47
100
AcDbScale
 70
     0
300
2:1
140
2.0
141
1.0
290
     0
  0
SCALE
  5
55
102
{ACAD_REACTORS
330
47
102
}
330
47
100
AcDbScale
 70
     0
300
4:1
140
4.0
141
1.0
290
     0
  0
SCALE
  5
56
102
{ACAD_REACTORS
330
47
102
}
330
47
100
AcDbScale
 70
     0
300
8:1
140
8.0
141
1.0
290
     0
  0
SCALE
  5
57
102
{ACAD_REACTORS
330
47
102
}
330
47
100
AcDbScale
 70
     0
300
10:1
140
10.0
141
1.0
290
     0
  0
SCALE
  5
58
102
{ACAD_REACTORS
330
47
102
}
330
47
100
AcDbScale
 70
     0
300
100:1
140
100.0
141
1.0
290
     0
  0
SCALE
  5
59
102
{ACAD_REACTORS
330
47
102
}
330
47
100
AcDbScale
 70
     0
300
1/128" = 1'-0"
140
0.0078125
141
12.0
290
     0
  0
SCALE
  5
5A
102
{ACAD_REACTORS
330
47
102
}
330
47
100
AcDbScale
 70
     0
300
1/64" = 1'-0"
140
0.015625
141
12.0
290
     0
  0
SCALE
  5
5B
102
{ACAD_REACTORS
330
47
102
}
330
47
100
AcDbScale
 70
     0
300
1/32" = 1'-0"
140
0.03125
141
12.0
290
     0
  0
SCALE
  5
5C
102
{ACAD_REACTORS
330
47
102
}
330
47
100
AcDbScale
 70
     0
300
1/16" = 1'-0"
140
0.0625
141
12.0
290
     0
  0
SCALE
  5
5D
102
{ACAD_REACTORS
330
47
102
}
330
47
100
AcDbScale
 70
     0
300
3/32" = 1'-0"
140
0.09375
141
12.0
290
     0
  0
SCALE
  5
5E
102
{ACAD_REACTORS
330
47
102
}
330
47
100
AcDbScale
 70
     0
300
1/8" = 1'-0"
140
0.125
141
12.0
290
     0
  0
SCALE
  5
5F
102
{ACAD_REACTORS
330
47
102
}
330
47
100
AcDbScale
 70
     0
300
3/16" = 1'-0"
140
0.1875
141
12.0
290
     0
  0
SCALE
  5
60
102
{ACAD_REACTORS
330
47
102
}
330
47
100
AcDbScale
 70
     0
300
1/4" = 1'-0"
140
0.25
141
12.0
290
     0
  0
SCALE
  5
61
102
{ACAD_REACTORS
330
47
102
}
330
47
100
AcDbScale
 70
     0
300
3/8" = 1'-0"
140
0.375
141
12.0
290
     0
  0
SCALE
  5
62
102
{ACAD_REACTORS
330
47
102
}
330
47
100
AcDbScale
 70
     0
300
1/2" = 1'-0"
140
0.5
141
12.0
290
     0
  0
SCALE
  5
63
102
{ACAD_REACTORS
330
47
102
}
330
47
100
AcDbScale
 70
     0
300
3/4" = 1'-0"
140
0.75
141
12.0
290
     0
  0
SCALE
  5
64
102
{ACAD_REACTORS
330
47
102
}
330
47
100
AcDbScale
 70
     0
300
1" = 1'-0"
140
1.0
141
12.0
290
     0
  0
SCALE
  5
65
102
{ACAD_REACTORS
330
47
102
}
330
47
100
AcDbScale
 70
     0
300
1-1/2" = 1'-0"
140
1.5
141
12.0
290
     0
  0
SCALE
  5
66
102
{ACAD_REACTORS
330
47
102
}
330
47
100
AcDbScale
 70
     0
300
3" = 1'-0"
140
3.0
141
12.0
290
     0
  0
SCALE
  5
67
102
{ACAD_REACTORS
330
47
102
}
330
47
100
AcDbScale
 70
     0
300
6" = 1'-0"
140
6.0
141
12.0
290
     0
  0
SCALE
  5
68
102
{ACAD_REACTORS
330
47
102
}
330
47
100
AcDbScale
 70
     0
300
1'-0" = 1'-0"
140
12.0
141
12.0
290
     0
  0
ENDSEC
  0
EOF
